Browse by artist name



NEW! Visit our Playlist "Chords and Lyrics" on Youtube

5 - And I love her

Print | Bookmark

And I love her ( Beatles )

Intro:
F#m E F#m
E|-------------------------------------------------|
B|-------------------------------------------------|
G|-------------------------------------------------|
D|-------------------------------------------------|
A|------7--6--4---------7--6--4---------7--6--4----|
E|---7---------------7---------------7-------------|



F#m C#m F#m C#m
I give her all my love That's all I do
F#m C#m A B7
And if you saw my love You'd love her too
E
And I love her

F#m C#m F#m C#m
She gives me everything And tenderly
F#m C#m A B7
The kiss my lover brings She brings to me
E
And I love her


C#m G#m C#m G#m
A love like ours could never die
C#m G#m B7
As long as I have you near me


F#m C#m F#m C#m
Bright are the stars that shine Dark is the sky
F#m C#m A B7
I know this love of mine Will never die
E
And I love her

Solo:

Gm Dm Gm Dm
Bright are the stars that shine Dark is the sky
Gm Dm Bb C7
I know this love of mine Will never die
F
And I love her

End:
Gm F Gm D
-|----------------------------------------------------------------
-|----------------------------------------------------------------
-|----------------------------------------------------------------
-|----------------------------------------------------------------
-|------8--7--5---------8--7--5---------8--7--5--------8--7--5----
-|---8---------------8---------------8--------------8-------------

"And I love her" Music, Chords and Lyrics on Youtube


Artist name: Beatles - A hard day's night

Last updated on April 5, 2013 with 929 views

Top100Tabs.com
The top 50 of the Guitar
!!! W A R N I N G !!!
These tabs files are the author's own work. You may only use these files for private study, scholarship, or research.