Browse by artist name



NEW! Visit our Playlist "Chords and Lyrics" on Youtube

18 - Birthday

Print | Bookmark

Birthday ( Beatles )

A
You say it's your birthday
A
It's my birthday too yeah
D
They say it's your birthday
A
We're gonna have a good time
E
I'm glad it's your birthday
A
Happy birthday to you

E
Yes we're going to a party party
E
Yes we're going to a party party
E
Yes we're going to a party party
C G
I would like you to dance
C G
(Birthday) Take a cha - cha -cha chance
C G
(Birthday) I would like you to dance
C G
(Birthday) Dance
E

instrumental

A
You say it's your birthday
A
It's my birthday too yeah
D
They say it's your birthday
A
We're gonna have a good time
E
I'm glad it's your birthday
A
Happy birthday to you


Riff 1 Riff 2 Riff 3
E|----------------------|----------------------|----------------------|
B|----------------------|----------------------|----------------------|
G|----------------------|---------5-4----------|---------7-6----------|
D|---------5-4----------|-----4-7-----7--------|-----6-9------9-------|
A|-----4-7-----7--------|-5-5-----------5------|-7-7------------7-----|
E|-5-5-----------5------|----------------------|----------------------|

Riff 4
E|----------------------|-------------------------|
B|----------------------|-------------------------|
G|----------------------|---------5-7-^9-\7-5-----|
D|-7---5-7-5------------|-----5-7-------------7-5-|
A|---7-------7-5-\3-----|---7---------------------|
E|------------------5-3-|-5-----------------------|

[--> repeat 3X <--] [--> 1X <--] E
E|----------------------------------|----------------------|
B|----------------------------------|----------------------|
G|----------------------------------|----------------------|
D|-----2-2--3-3-4-4-5-5-3-3-2-2-0-0-|----------------------|
A|-3-3------------------------------|-4-4-5-5-6-6-7-7------|
E|----------------------------------|----------------------|


Artist name: Beatles - White Album

Last updated on December 18, 2009 with 563 views

Top100Tabs.com
The top 50 of the Guitar
!!! W A R N I N G !!!
These tabs files are the author's own work. You may only use these files for private study, scholarship, or research.