Browse by artist name



NEW! Visit our Playlist "Chords and Lyrics" on Youtube

3 - Flying

Print | Bookmark

Flying ( Beatles ) Musical

C
-|-------------------------|-------------------------
-|-------------------------|-------------------------
-|-------------------------|-------------------------
-|--3-----3-----3-----2----|--------3-----3-----2----
-|--3-----3-----3-----3----|--------3-----3-----3----
-|-------------------------|-------------------------
^ ^ ^ ^ ^ ^ ^ ^

-|-------------------------|-------------------------
-|-------------------------|-------------------------
-|-------------------------|-------------------------
-|--3-----3-----3-----2----|--------3-----3-----2----
-|--3-----3-----3-----3----|--------3-----3-----3----
-|-------------------------|-------------------------
^ ^ ^ ^ ^ ^ ^ ^
F7
-|-------------------------|-------------------------
-|-------------------------|-------------------------
-|--------2-----2----------|--------2-----2-----2----
-|--------1-----1----------|--------1-----1-----1----
-|-----3--------------3----|-----3-----3-----3-------
-|-------------------------|-------------------------
^ ^ ^ ^ ^ ^ ^ ^
C
-|-------------------------|-------------------------
-|-------------------------|-------------------------
-|-------------------------|-------------------------
-|--------3-----3-----3----|--2-----3-----3-----2----
-|--------3-----3-----3----|--3-----3-----3-----3----
-|-------------------------|-------------------------
^ ^ ^ ^ ^ ^ ^ ^
G7 F
Play Fill 1 here
-|-------------------------|-------------------------
-|-------------------------|-------------------------
-|-------------------------|-------------------------
-|--------3-----3-----3----|--------3-----3-----3p2--
-|--------5-----5-----5----|-----3--3-----3-----3p3--
-|-------------------------|-------------------------
^ ^ ^ ^ ^ ^ ^ ^
C
-|-------------------------|-------------------------
-|-------------------------|-------------------------
-|-------------------------|-------------------------
-|--------2-----2-----2----|--------3--------3-------
-|--------3-----3-----3----|--3-----3--------5-------
-|-------------------------|-------------------------
^ ^ ^ ^ ^ ^ ^ ^

Play it again with this ending for the last measure:

G7
|-------------------------
|-------------------------
|-------------------------
|--5-----5-----5-----5----
|--5-----5-----5-----5----
|-------------------------
^ ^ ^ ^

And one more time, plus the "La la la la la la" vocals, with this ending:

C
|-------------------------
|-------------------------
|-------------------------
|--2----------------------
|--3----------------------
|-------------------------
^ ^ ^ ^

That's it! Oh, and here is Fill 1:

G7 F
-|--12\10-8---7\5-3---1--0-|--1/3---3-----1/3-3-1--0-
-|-------------------------|-------------------------
-|--12\10-9---7\5-4---2--0-|--2/4---4-----2/4-4-2--0-
-|-------------------------|-------------------------
-|-------------------------|-------------------------
-|-------------------------|-------------------------
^ ^ ^ ^ ^ ^ ^ ^

C
-|-----0-------------------|-------------------------
-|--1--------1-----1-------|-------------------------
-|-----0-------------------|-------------------------
-|--2--------2-----2-------|-------------------------
-|----------------------3p0|-------------------------
-|-------------------------|--3----------------------
^ ^ ^ ^ ^ ^ ^ ^


Artist name: Beatles - Magical Mystery tour

Last updated on December 17, 2009 with 351 views

Top100Tabs.com
The top 50 of the Guitar
!!! W A R N I N G !!!
These tabs files are the author's own work. You may only use these files for private study, scholarship, or research.