Browse by artist name



NEW! Visit our Playlist "Chords and Lyrics" on Youtube

9 - It's only love

Print | Bookmark

It's only love ( Beatles )

G+: xx1003


C Am

|-------------0
|-1---0-------1
|-------2-0---2 repeat
|-------------2
|-------------0
|--------------

C Em Bb F G G7 G+ G
I get high when I see you go by, my oh my

(emphasize the following notes while playing the chords, or pick them):

|-------------------------------------------------------
|--1------0---------------------------------------------
|-------------------3------2------0---------------------
|-------------------------------------3---1----------0--
|-------------------------------------------------------
|-------------------------------------------------------


C Em Bb F G G7 G+ G
When you sigh my my inside just flies, butterflies

F G C Am
Why am I so shy when I'm beside you ?

Bb G
It's only love and that is all

C Am (as in intro)
Why should i feel the way i do?

Bb G F G
It's only love and that is all, but it's so hard, lovin you

Is it right that you and i should fight every night
Just the sight of you makes nighttime bright, very bright
Haven't I the right to make it up, girl?

It's only love and that is all,
Why should i feel the way i do?
It's only love and that is all, but it's so hard, lovin you
F G C Am C Am
Yes it's so hard, lovin you, lovin you.


Artist name: Beatles - Help !

Last updated on December 17, 2009 with 674 views

Top100Tabs.com
The top 50 of the Guitar
!!! W A R N I N G !!!
These tabs files are the author's own work. You may only use these files for private study, scholarship, or research.