Browse by artist name



NEW! Visit our Playlist "Chords and Lyrics" on Youtube

8 - I've got a feeling

Print | Bookmark

I've Got A Feeling (Lennon, McCartney)  ALBUM Let it Be 1970
4/4 Time signature Key of A

Intro: Main Riff:
A D/A A D/A
|--------5------------5-----|--------5------------5----
|--------2----2---3---3-----|--------2----2---3---3----
|-----2-----2_h_4---4---2---|-----2-----2_h_4---4---2--
|---------------------------|--2-----------------------
|---0-----------------------|--0-----------------------
|---0-----------------------|--------------------------

w/ Main Riff x 8
A D/A | A D/A | A D/A | A D/A
Ive got a feeling a feeling deep inside Oh yeah Oh yeah Thats right


A D/A | A D/A | A D/A | A D/A
Ive got a feeling a feeling i cant hide oh no no oh no oh no


Git 1 plays chords when not playing the riff (see bottom for shapes)
Git 2 plays:

A7 E G D
|-------------------------------|-----------------------------------
|--8-------8------8------8------|-----------------------------------
|--9-9-9---9-9-9--9-9-9--9-9-9--|-----------------------------------
|--7-7-7---7-7-7--7-7-7--7-7-7--|-----------------------------------
|-------------------------------|---------0-2-3-4-5-----------------
|-------------------------------|-0-2-3-4---------------------------
yeah yeah ive got a feel

w/ Main Riff Git 1 x 10
A D/A A D/A
|----12-\--9---------------|----12-\--9---------------
|----14--\-10--7- 8-7------|----14--\-10--7- 8-7------
|--------------7-h7-7------|--------------7-h7-7------
|--------------7- 9-7------|--------------7- 9-7------
|--------------------------|--------------------------
|--------------------------|--------------------------
- ing yeah

A D/A A D/A
|------------5------5----|---------5--------------5--------5------5-
|------------5------5----|---------5--------------5--------5------5-
|------------6------6----|---------6--------------6--------6------6-
|------------7------7----|---------7--------------7--------7------7-
|------------------------|------------------------------------------
|------------------------|------------------------------------------
Oh please believe me,I'd hate to miss the train Oh yeah
Ive got a feel ing that keeps me on my toes Oh yeah


A D/A A D/A A D/A
|-5--5-------------|-5--5--------5------5-|----5-------------------------
|-5--5--7--8-------|-5--5--7--8--5------5-|----5--------------7-------5--
|-6--6--7--7-------|----6--7--7--6------6-|----6--------------7-------6--
|-7--7--7--9-------|----7--7--9--7------7-|----7--------------7-------7--
|------------------|----------------------|------------------------------
|------------------|----------------------|------------------------------
yeah Oh yeah. And if you leave me I
Oh yeah. Ive got a feeling I think that


A D/A A D/A A D/A
|-----------------------5------|-5--5--------------|-5--5--------------
|------------5----------5------|-5--5--7--8--------|-5--5--7--8--7-----
|------------6--7---7---6------|-6--6--7--7--------|-6--6--7--7--7-----
|------------7--7---7---7------|-7--7--7--9--------|-7--7--7--9--7-----
|------------------------------|-------------------|-------------------
|------------------------------|-------------------|-------------------
won't be late again oh no oh no oh no
every body knows oh yeah oh yeah oh yeah


A7 E G D
|------------------------------|-----------------------------------
|--8------8------8------8------|-----------------------------------
|--9-9-9--9-9-9--9-9-9--9-9-9--|-----------------------------------
|--7-7-7--7-7-7--7-7-7--7-7-7--|-----------------------------------
|------------------------------|---------0-2-3-4-5-----------------
|------------------------------|-0-2-3-4---------------------------
yeah yeah Ive got a feel
yeah yeah Ive got a feel


A D/A A D/A
|----12-\--9---------------|----12-\--9-----------------
|----14--\-10--7- 8-7------|----14--\-10----7- 8-7------
|--------------7-h7-7------|----------------7-h7-7------
|--------------7- 9-7------|----------------7- 9-7------
|--------------------------|----------------------------
|--------------------------|----------------------------
- ing yeah Ive got a feeling
- ing yeah yeah

_____
|1.
E G7
|-10b12----10b12------10b11~11~11~11r10-7-|-7---7----7--------7------7------7-
|-----------------------------------------|-8b9b10---8b10r8---8b10r8-8b10r8-8-
|-----------------------------------------|-----------------------------------
|-----------------------------------------|-----------------------------------
|-----------------------------------------|-----------------------------------
|-----------------------------------------|-----------------------------------
All these years I've been wandering around,Wondering how come nobody told me


D7
|----8b10~10----------------8b10~10~10~10r8--5--------------
|-----------------------------------------------------------
|-----------------------------------------------------------
|-----------------------------------------------------------
|-----------------------------------------------------------
|-----------------------------------------------------------
All that I was looking for was somebody Who looked like you.


A7 /\/\/\/\/\/\/\/\/\/\/\
|-----------------|------------------------||
|-----------------|-----------------------x||
|-7b9~9b10b11r9r8-|-(7)b8~8~8~8~8~-5b7r5---||
|-----------------|----------------------7x||
|-----------------|------------------------||
|-----------------|------------------------||

____
|2. w/ Main Riff x6
A D/A A D/A
||---5--5-----------------|-5--5---5----------------
||---5--5--7- 8--7--------|-5--5---5-0-7- 8--7---7--
||---6--6--7-h7--7--------|-6--6---6---7-h7--7---7--
||---7--7--7- 9--7--------|-7--7---7---7- 9--7---7--
||------------------------|-------------------------
||------------------------|-------------------------
Ev'rybody had a hard year Ev'rybody had a good time
Ev'rybody had a good year,Ev'ry let their hair down


A D/A A D/A
|---5--5----------------------|---5--5-------------------------
|---5--5--7- 8-----7-----7----|---5--5--7- 8-----7-----7-------
|---6--6--7-h7-----7-----7----|---6--6--7-h7-----7-----7-------
|---7--7--7- 9-----7-----7----|---7--7--7- 9-----7-----7-------
|-----------------------------|--------------------------------
|-----------------------------|--------------------------------
Ev'rybody had a wet dream, Ev'rybody saw the sunshine
Ev'rybody pulled their socks up Ev'rybody put their foot down.


______ ___
|1. |2. See end for notes
A D/A A D/A A7 [Edim/A D#dim/A Ddim/A]
|--------------|---------------------||-------------------------------
|--------7--7--|---5--5--7- 8-----7-x||----8-8-8--8-8-8--7-7-7--6-6-6-
|--------7--7--|---6--6--7-h7-----7--||--9---9-9--9-9-9--8-8-8--7-7-7-
|--------7--7--|---7--7--7- 9-----7-x||-----(8)---------(7)----(6)----
|--------------|---------------------||-------------------------------
|--------------|---------------------||-------------------------------
Oh yeah, Oh yeah.


[C#dim/A Cdim/A Bdim/A] A D/A A D/A
|-------------------------------|-----5----------5---|----5-----------5----||
|-5-5-5--5-5-5--6-6-6--7-7-7--8-|--------------------|---------------------||
|-6-6-6--6-6-6--7-7-7--8-8-8--9-|---------2---2----2-|--2-----2---2--------||
|(5)-----------(6)----(7)-------|---2---2-h-4--4-----|------2---4---4----2-||
|-------------------------------|-0------------------|-0-------------------||
|-------------------------------|--------------------|---------------------||

______
w/ Main riff 4x |1.
A D/A A D/A A D/A
||-------12-12b14~r12-----|---9------------------12-|------------------------
||x--12b14----------------|--------------10-12b14---|-----------7---8----7---
||------------------------|-------------------------|-----------7 h 7----7---
||x--1.-I-got-a-feeling-a-|-feeling-i-cant-hide-o-no|-----------7---9----7---
||---2.-I-got-a-feeling-a-|-feeling-deep-inside-o-ye|--------oh---yeah-------
||------------------------|-------------------------|------------------------
Ev'rybody had a good year Ev'rybody had a hard time Ev'rybody had a wet dream
Ev'rybody had a good year,Ev'ry let their hair down

_____
|2.
A D/A A D/A
|----------------------------||-----5--------------------------
|-----------7---8--7---7----x||-----5----5------7---8--7----7--
|-----------7-h-7--7---7-----||-----6-----------7-h-7--7----7--
|-----------7---9--7---7----x||-----7-----------7---9--7----7--
|----------------------------||--------------------Oh-no-no-no-
|----------------------------||--------------------------------
Everybody saw the sun shine Ev'rybody pulled their socks up

A D/A A7 [Edim/A D#dim/A Ddim/A]
|--------5----------------5-------|----------------------------
|-5--5---5--7- -8---------7-------|------8-----7-----7---------
|-6--6---6--7-h-7---------7-------|------9-9-9-8-8-8-8---------
|-7--7---7--7- -9---------7-------|----------------------------
|-----------------------------yeh-|----------------------------
|---------------------------------|----------------------------
Everybody put their foot down oh yeah

[C#dim/A Ddim/A D#dim/A] [Edim/A D#dim/A Ddim/A]
|---------------------------|-----5-5-5-7-7-7-8-8-8--
|-5-5--5-5-5-7-7-7-6-6-6----|-5---5-5-5-6-6-6-7-7-7--
|-6-6--6-6-6-8-8-8-7-7-7----|-6---6-6-6-7-7-7-8-8-8--
|---------------------------|------------------------
|---Ive-got-a-feeling-------|------------------------
|---------------------------|------------------------

[C#dim/A Ddim/A D#dim/A] [Edim/A D#dim/A Ddim/A]
|-9-9-9-9-9-9-8-8-8-7-7-7-|-5---5-5-5-7-7-7-8-8-8-
|-8-8-8-8-8-8-7-7-7-6-6-6-|-5---5-5-5-6-6-6-7-7-7-
|-9-9-9-9-9-9-8-8-8-7-7-7-|-6---6-6-6-7-7-7-8-8-8-
|-------------------------|-----------------------
|-------------------------|---------------Ive-got-
|-------------------------|----------------a-feel-
Oh yeah

[C#dim/A Ddim/A D#dim/A] A
|-9----9-9-9-8-8-8-7-7-7--|----------------------------||
|-8----8-8-8-7-7-7-6-6-6--|-5--------------------------||
|-9----9-9-9-8-8-8-7-7-7--|-6--------------------------||
|-------------------------|-7--------------------------||
|-ing--------yeah---------|----------------------------||
|-------------------------|----------------------------||

Notes:

/\/\/\/\/\ Vibrato
7b8~8 Pluck,Bend up a semitone from 7th fret hold and strike again
(8) Implied note [ghost]
7b9r7 Pluck, bend 7th fret up two semitones, pluck, release and pluck

A7 x02223 | This is
G 320003 x| supposed There are a couple of really
E 032200 | to be nifty bass runs in this song
D x00232 x| a repeat which I might add if there
G7 320001 | sign is any interest?
D7 x00212

Guitar 1 wierd shape info

The tab here is shows the timing that should
be used. They are triplets.

[Edim/A D#dim/A Ddim/A] [C#dim/A Cdim/A Bdim/A]
Bdim/A x0343x |-------------------------|--------------------------|
Cdim/A x0454x |-8-8-8-8-8-8--7-7-7-6-6-6|-5-5-5-5-5-5--4-4-4-3-3-3-|
C#dim/A x0565x |-9-9-9-9-9-9--8-8-8-7-7-7|-6-6-6-6-6-6--5-5-5-4-4-4-|
Ddim/A x0676x |-8-8-8-8-8-8--7-7-7-6-6-6|-5-5-5-5-5-5--4-4-4-3-3-3-|
D#dim/A x0787x |-------------------------|--------------------------|
Edim/A x0898x |---I got a feeling-------|--------------------------|
\ these are overdubbed voices

These D shapes [Edim/A D#dim/A Ddim/A] [C#dim/A Ddim/A D#dim/A]
are moved up & |-------------------------|---------------------------
down. Usually |-8-8-8-8-8-8--7-7-7-6-6-6|-5-5-5-5-5-5--6-6-6-7-7-7--
they correspond |-9-9-9-9-9-9--8-8-8-7-7-7|-6-6-6-6-6-6--7-7-7-8-8-8--
to what Git 2 |-8-8-8-8-8-8--7-7-7-6-6-6|-5-5-5-5-5-5--6-6-6-7-7-7--
is playing but |-------------------------|---------------------------
not always |-------------------------|---------------------------
these two bars are repeated three times



Artist name: Beatles - Let it be

Last updated on December 18, 2009 with 645 views

Top100Tabs.com
The top 50 of the Guitar
!!! W A R N I N G !!!
These tabs files are the author's own work. You may only use these files for private study, scholarship, or research.