Browse by artist name



NEW! Visit our Playlist "Chords and Lyrics" on Youtube

Killing Floor (Tabs)

Print | Bookmark

Killing Floor - Jimi hendrix

Tuning: Eb

With Slight Distortion
Intro (Repeat as many times as you like)
e|----------------------------------------------------------------------------|
B|-------------------------7-5b-----------------------7-5b----xx-7------------|
G|-------------------------7-5b-----------------------7-5b----xx-7---5-5-5----|
D|-5h7--5h7-xx------5h7------------7-7-7p5---5h7--------------xx---x------7p5-|
A|----------xx-----------------------------------------------------x----------|
E|----------xx-8b-------5-5------5-5-5-----8b-----5-5-------------------------|
Verse
e|-----------------------------|---------------------------------------------|
B|-------7b--x-7---------------|---------------------------------------------|
G|-------7b--x-7---5--5-5------|---------------------------------------------|
D|-7-7-------x----x-------7-77-|---------------------------------------------|
A|---------------x-------------|--------------5--5-5--6--6--7----------777-7-|
E|-----5------------------5----|-5--5-5-8--8-8----------------0--0--0--000-0-|

e|---------------------------------------------------------------------------|
B|-------------------------------------------------------5-------------------|
G|------------5-5-------5~------5-5------5~-----5-5-7b--7--5~----------5-----|
D|--------7-7-5-5------x----7-7-5-5---xx----7-7-5-5-----------7--7-7-5-5---x-|
A|-7--------------5-7-x-------------5-xx---------------------------------5-x-|
E|-0--5-5--------------------------------------------------------------------|

e|---------------------------------------------------------------------------|
B|----------------10/18---------------------------0--5-5b--------------------|
G|---10~---------------17\-x-10-10b----------10---0--5-5b-----5-5-5----------|
D|--x----12-12-10----------x--------12-12-10-10---0-------7-7-5-5-5-------5~-|
A|-x----------------------------------------------------------------7-7-7----|
E|--------------------------------------------------------5-5----------------|

e|---------------------------------------------------------------------------|
B|---------------------------------------------------------------------------|
G|---------------------7-7----------------------------5---------5-5----------|
D|-7-7-5-5-5-------9-9-----9-9-------x-7-7-9-xx-4-4-5-5----------------------|
A|-----------7-7-7-7-7-7-7-----7p5h7-x-5-5-5-xx---------0-0-3/7----3/7-5-7---|
E|-------------0-0-0-0-----------------------------------------------------0-|
Bass and drums enter. Vocals Start.
e|--------------|------------------------------------------------------------|
B|-8--8-8-8--8--|------------------------------------------------5b----------|
G|-7--7-7-7--7--|-----------5----------5-------------------------5b----------|
D|--------------|-----7-7-5-5-5--x------------7--7--5--5-5---x------7--7-7-5-|
A|-7--7-7-7--7--|--------------5-x-7-7---------------------5-x-7-------------|
E|-------------0|-5-5----------------------5---------------------------------|

e|----------------------------------------------------------------------------|
B|----8b---8---------------------------10~~~----------------------------------|
G|-5-----------5~--------5--5----------10~~~----------10----------------------|
D|-5----------x----7--7--5--5-----x-x--------12-12-10-10-------x-10-12--12-10-|
A|-----------x-----------------7--x-x--------------------7/12--x--------------|
E|----------------------------------------------------------------------------|

e|---------------------------------------------------------------------------|
B|-------------------------------------------------------------------12--12b-|
G|---------10-10-----------5~~~-------------------------5-5----------12--12b-|
D|-12--12--10-10------x-x-------x-7-7-5-------------7-7-5-5------------------|
A|--------------12-12-x-x-------x---------5h6h7---------------5h6h7----------|
E|--------------------------------------8--------5-5-------------------------|

e|----------------------------------------------------------------------------|
B|----------------------------------------------------------------------------|
G|-14-------------------10~~~---12-12----10-----------------------------------|
D|-14-14-12-12---------------12-12-12-10-10------------------------5-5b-------|
A|--------------14-12----------------------12----3/7-5--5-5-6--6-6------7-----|
E|-------------------------------------------0-0--------------------------0-0-|
Repeat Solo (with fuzz)
e|----------------|--------------------|-7/9-9------9\7---5-------------------|
B|---8--8-8-8-----|-----8--8-8--8--8--8|--------------------------------------|
G|---7--7-7-7-5-5b|-----7--7-7--7--7--7|-7/9----9---9\7---6-------------------|
D|----------------|--------------------|-----------------------7--7--5--5-5---|
A|---7--7-7-7-----|-----7--7-7--7--7--7|------------------------------------5-|
E|-0--------------|-0-0-0--0-0--0--0--0|--------------------5-5---------------|

e|-------7/9------9\7--------------------------------12/14-14--14\12----10----|
B|----------------------------------------------------------------------10----|
G|-------7/9--9---9\7-7-5h6--------------------------12/14-14--14\12-12-10h11-|
D|--------------------------7-7-7--7--5--5-5----------------------------------|
A|-6-7---------------------------------------7-7-5----------------------------|
E|--------------------------5-5-----------------------------------------------|

e|-------------------------7/9-----9\7---------------------7/9----7/9--7---7-|
B|-------------------------------------5-------------------------------------|
G|-------------------------7/9/19--9\7-5h6-6---------------7/9--9-7/9--7---7-|
D|----12-12-10-10--------------------------7-7-7-5-5------------9------------|
A|---------------------------------------------------7-7-7-------------------|
E|-10-------------12-12-12---------------------------------------------------|
pre bend
e|-7--7--7--5--7--5---5--5--5-------5-----------------------5/14-14/15-14/15-|
B|-----------------------------8b-----8p5-5-8p5-5-----------7/16-------------|
G|-7--7--7--5--7--5---5--5--5------------7-----7-(9)7-5----------------------|
D|---------------------------------------------------------------------------|
A|---------------------------------------------------------------------------|
E|---------------------------------------------------------------------------|

e|-15--15---15\14-14-14-14\12-12\---12/17--17\--------15-----14--14-14--12----|
B|---17--17-17\15-15-15-15\13-13\--------------12/17--17-17--15--15-15--13----|
G|----------------------------------------------------------------------------|
D|----------------------------------------------------------------------------|
A|----------------------------------------------------------------------------|
E|----------------------------------------------------------------------------|
hold hold|-------------|
e|-12-12-12---------------------------------------------------------15----14--|
B|-13-13-13-------------------------------------------------------------------|
G|----------12h14--14-17b20r17b20----r17-14~--------14-16p14-16b(18)--(16)----|
D|------------------------------------------------14--------------------------|
A|--------------------------------------------17b-----------------------------|
E|----------------------------------------------------------------------------|
-----------------------------------------------------------------------------|
e|-14-------------------------------------------------------------------------|
B|----------------------------------------------------------------------------|
G|---(16)-(16)r16p14---14-17b---17~--17p14----14----------14---------16p14----|
D|-------------------17--------------------17----17p14--14-------14~-------17-|
A|-----------------------------------------------------------17b--------------|
E|----------------------------------------------------------------------------|
Verse (No Fuzz)
e|-----------------------------------------|---------------------------------|
B|-------------------------7--5------------|---------------------------------|
G|-------------14\-----5---7--5------------|----------------------------5----|
D|-14h17--17~--14\-5h7---------------------|------7-7-5-5---x--------5--5-xx-|
A|-----------------------------------------|--------------7-x-3b----------xx-|
E|-------------------------------0------12\|-5--5----------------5-----------|

e|----------------------------------------------------------------------------|
B|---5-5-x-----------------------7--7-7--5-5-5------10~~~---------------------|
G|---5-5-x----------------5--5-5-7--7-7--6-6-6------10~~~-------10-10-12p10---|
D|-5------7-xx-5-5--------5--5-5----------------7\--------12-12-10-10------12-|
A|-5--------xx-----5p3--------------------------------------------------------|
E|---------------------5------------------------------------------------------|

e|---------------------------------------------------------------------------|
B|-10~~~10-12---------------------5--5-5-5------------------5--5-5-5---------|
G|-10~~~10-12---------------------5--5-5-5------------------5--5-5-5---------|
D|---------12--12--10--10----------------------------------------------------|
A|-------------------------12\-------------5--5--5-5-6--7-----------5-5-5--5-|
E|-------------------------12\-----------------------------------------------|

e|---------------------------------------------------------------------------|
B|-----------------------------------10-10-----------------------------------|
G|-----------------------------------10-10-----------------------------------|
D|-----------------------------------------12--12-12-10-10-------------------|
A|-5-6--7----------7--7--5--5------------------------------12--12-12-12--12--|
E|----------0--0-0-------------7--5------------------------------------------|
Outro (With fuzz)
e|----------------------------------------------|-7/9-9---7-7-5--------------|
B|----------------------------------------------|----------------------------|
G|----------------12-xx-------------------------|-7/9-9---7-7-5h6------------|
D|----10-10-10-12----xx-10--10-10---------------|-------------------7--7-7-5-|
A|-12-----------------------------12-------5-6h7|----------------------------|
E|-----------------------------------0-0-0------|-----------------5----------|

e|--------7/9-9/----------7--7-------------------------12/14-----14------10--|
B|-----------------0-0-0-------------------------------------------------10--|
G|--------7/9-9/---0-0-0--7--7--6----------------------12/14-14----12-12-10h-|
D|-5------------0--0-0-0-----------7--7--5--5--0-0-0-0-----------------------|
A|---5-7------------------------0--------------0-0-0-0-----------------------|
E|---------------------------------------------------------------------------|

e|-----------------------7/9--9----------------5------5-------5---5--5-------|
B|---10-10-10-10-10----------------x----------5-8b-----8p5---5-5h8-----------|
G|11-11-11-11-11-11------7/9--9----x-5-------7------------7b-------7b--7p5---|
D|---12-12-12-12-12-0-0----------------------------------------------------7-|
A|---------------------------------------------------------------------------|
E|---------------------------------------------------------------------------|
Whammy Bar w/bar
e|--------5------------------------------------------------------------------|
B|-----8--5------------------------------------------------------------------|
G|-5h7------7--5--5--7b(10)r(10)r(10)r(7)-5h7p5h7p5h7p5-5\/(5)h7p5h7p7-(5)\/-|
D|---------------------------------------------------------------------------|
A|---------------------------------------------------------------------------|
E|---------------------------------------------------------------------------|
Feedback of amplifier
e|----------------------------------0-0-0------------------------------------|
B|----------------------------------2-2-2------------------------------------|
G|-(5)-7b9r7p5----------------------0-0-0------------------------------------|
D|------------7p5-------------------2-2-2------------------------------------|
A|---------------7p5-3/4-----0------0-0-0------------------------------------|
E|-----------------------5-0-------------------------------------------------|

| / slide up
| \ slide down
| h hammer-on
| p pull-off
| ~ vibrato
| + harmonic
| x Mute note


Artist name: Jimi Hendrix

Last updated on May 31, 2012 with 538 views

Top100Tabs.com
The top 50 of the Guitar
!!! W A R N I N G !!!
These tabs files are the author's own work. You may only use these files for private study, scholarship, or research.