Browse by artist name



NEW! Visit our Playlist "Chords and Lyrics" on Youtube

3 - Lady Madonna

Print | Bookmark

Lady Madonna ( Beatles )

Riff 1:
E|---------------------|
B|---------------------|
G|--------- ------2----|
D|-------- 0-0-3h4-----|
A|-0-0-3-4-------------|
E|---------------------|
1 2 3 4
Riff 2:
E|------------------|--------------------------------
B|------------------|--------------------------------
G|------------------|-----0-0-2--------------
D|---------0-0-2-2--|-3-3--------------------------
A|-0-0-3-4----------|--------------------------------
E|------------------|--------------------------------
1 2 3 4


(Riff 1) (Riff 1)
A D A D
Lady Madonna Children at your feet
(Riff 2)
A D F G A
Wonder how you manage to make ends meet
(Riff 1) (Riff 1)
A D A D
Who finds the money When you pay the rent
(Riff 2)
A D F G A
Did you think that money was hea-ven sent?


Dm7 G7
Friday night arrives without a suitcase
C Am7
Sunday evening creeping like a nun
Dm7 G7
Monday's child has learned to tie his bootlace
C Bm7 E7
See how they run


(Riff 1) (Riff 1)
A D A D
Lady Madonna Baby at your breast
(Riff 2)
A D F G A
Wonder how you manage to feed the rest

Solo:

C Bm7 E7
See how they run


(Riff 1) (Riff 1)
A D A D
Lady Madonna Lying on the bed
(Riff 2)
A D F G A
Listen to the music playing in your head

Solo:

Dm7 G7
Tuesday afternoon is never-ending
C Am7
Wednesday morning papers didn't come
Dm7 G7
Thursday night your stockings needed mending
C Bm7 E7
See how they run


(Riff 1) (Riff 1)
A D A D
Lady Madonna Children at your feet
(Riff 2)
A D F G A
Wonder how you manage to make ends meet

A G/B Cm G/B A

A G/B Cm G/B A


Artist name: Beatles - Past Master Vol.2

Last updated on December 18, 2009 with 607 views

Top100Tabs.com
The top 50 of the Guitar
!!! W A R N I N G !!!
These tabs files are the author's own work. You may only use these files for private study, scholarship, or research.