Browse by artist name



NEW! Visit our Playlist "Chords and Lyrics" on Youtube

20 - Mother Nature's Son

Print | Bookmark

Mother Nature's Son ( Beatles )

INTRO:
(slowly pluck these) (strum a bit on each of these)

E ---2---2---2------------------5--3--0--3p2--0h2-2h3-0h2-0h2---
B ---3---3---3------------------3--3--3--3-3--3-3-3-3-3-3-3-3---
G -4---2---1--------------------2--2--2--2-2--2-2-2-2-2-2-2-2---
D ------------------------------0--0--0--0-0--0-0-0-0-0-0-0-0---
A --------------------------------------------------------------
E -------------0------------------------------------------------

D Dsus4 D Bm E Riff #1
Born a poor young country boy Mother Nature's son
A D Dm G D
All day long I'm sitting singing songs for everyone

D Dsus4 D Bm E Riff #1
Sit beside a mountain stream See her waters rise
A D Dm G D
Listen to the pretty sound of music as she flies

D G D
Do do do do do do do do do do do
D G D Dmaj7 D7
do do do do do do do do do
G Gm
Do do do do do do do do
D
Yeah yeah yeah

D Dsus4 D Bm E Riff #1
Find me in my field of grass Mother Nature's son
A D Dm G D
Swaying daisies sing a lazy song beneath the sun

D G D
Do do do do do do do do do do do
D G D Dmaj7 D7
do do do do do do do do do
G Gm
Do do do do do do do do
D
Yeah yeah yeah

D Dsus4 D Bm E A D Dm G D

D Dm G D
Oh Mother Nature's Son


Extra:

Riff #1:
D -------2---
A -----2-----
E -0-4-------


Artist name: Beatles - White Album

Last updated on December 18, 2009 with 482 views

Top100Tabs.com
The top 50 of the Guitar
!!! W A R N I N G !!!
These tabs files are the author's own work. You may only use these files for private study, scholarship, or research.