Browse by artist name



NEW! Visit our Playlist "Chords and Lyrics" on Youtube

26 - Savoy truffle

Print | Bookmark

TAB: Savoy Truffle
MUSIC BY: The Beatles (From the White Album)
TABBED BY: The Beatles Central Team (jpgr_beatles@yahoo.com)


Intro:

(2 bars of E7)

E7
Creme Tangerine and montelimar

Riff 1: (Play this while you sing "Creme Tangerine,"
it should "sing" the same tune.)

E|---------------------------------|
B|---------------------------------|
G|-9b11---------7------------9-----|
D|-----------------------9---------|
A ---------------------------------|
E|---------------------------------|

F# A
A ginger sling with a pineapple heart
G B
A coffee dessert yes, you know it's good news
Em C/E Em C/E C G
But you'll have to have them all pulled out after the Savoy Truffle

(2 bars of E7)


(Play Riff 1 here) E7
Cool cherry cream and a nice apple tart

F# A
I feel your taste all the time we're apart
G B
Coconut fudge really blows down those blues
Em C/E Em C/E C G
But you'll have to have them all pulled out after the Savoy Truffle


Em A
You might not feel it now
Asus4 A G B
But when the pain cuts through, you're gonna know and how
Em A
The sweat is gonna fill your head
Asus4 A G B
When it becomes too much you'll shout aloud

Solo:

E7
E|---------------------------------|----------------4---5---6---7--
B|-5b7hold-----7r5-----5r3---------|-5------------------------------
G|---------------------------------|--------------------------------
D|---------------------------------|--------------------------------
A|---------------------------------|--------------------------------
E|---------------------------------|--------------------------------
^ ^ ^ ^ ^ ^ ^ ^


E|---------------------------------|--------------------------------
B|---------------------------------|--------------------------------
G|---------------------------------|--------------------------------
D|---------------------------------|--------------------------------
A|---------------------------------|--------------------------------
E|---------------------------------|--------------------------------
^ ^ ^ ^ ^ ^ ^ ^

F#
E|---------------------------------|--------------------6---7---8---
B|---------------------------------|----------------------7---8---9-
G|-4b6r4-------4b6r4-------4b6r4---|-2h3p2--------------------------
D|---------------------------------|-------4------------------------
A|---------------------------------|--------------------------------
E|---------------------------------|--------------------------------
^ ^ ^ ^ ^ ^ ^ ^

A
E|-/9------------------------------|--------------------------------
B|-/10-----------------------------|--------------------------------
G|---------------------------------|--------------------------------
D|---------------------------------|--------------------------------
A|---------------------------------|--------------------------------
E|---------------------------------|--------------------------------
^ ^ ^ ^ ^ ^ ^ ^
G
E|-----------------7--8--9--8b10r8-|-----------------7---8---9---10-
B|-------------/8------------------|-8---------------8---9---10--11-
G|---------------------------------|--------------------------------
D|---------------------------------|--------------------------------
A|---------------------------------|--------------------------------
E|---------------------------------|--------------------------------
^ ^ ^ ^ ^ ^ ^ ^
B
E|---------------------------------|------------12------------------
B|---------------------------------|------------15b17---------------
G|---------------------------------|--------------------------------
D|---------------------------------|--------------------------------
A|---------------------------------|--------------------------------
E|---------------------------------|--------------------------------
^ ^ ^ ^ ^ ^ ^ ^

Em C/E Em C/E C G
But you'll have to have them all pulled out after the Savoy Truffle


Em A
You know that what you eat you are
Asus4 A G B
But what is sweet now turns so sour
Em A
We all know Obla-Di-Bla-Da
Asus4 A G B
But can you show me where you are?

E7
Creme Tangerine and montelimar
F# A
A ginger sling with a pineapple heart
G B
A coffee dessert yes, you know it's good news
Em C/E Em C/E C G
But you'll have to have them all pulled out after the Savoy Truffle
Em C/E Em C/E C G
Yes you'll have to have them all pulled out after the Savoy Truffle


Artist name: Beatles - White Album

Last updated on December 18, 2009 with 456 views

Top100Tabs.com
The top 50 of the Guitar
!!! W A R N I N G !!!
These tabs files are the author's own work. You may only use these files for private study, scholarship, or research.