Browse by artist name



NEW! Visit our Playlist "Chords and Lyrics" on Youtube

8 - Words of Love

Print | Bookmark

Words of Love ( Beatles ) 

A D E A D
Hold me close and tell me how you feel
E A D E A D E
Tell me love is real hum hum hum hum hum

A D E A D
Words of love you whisper soft and true
E A D E
Darling I love you hum hum

Solo:

A D E A D
Let me hear you say the words I long to hear
E A D A D E
Darling when you're near hum hum hum hum hum

A D E A D
Words of love you whisper soft and true
E A D E A D E
Darling I love you hum hum hum hum hum


Intro:

A D E
E|-5-------5-------0-------0-------|-----2-----------0-----------0--
B|-5-------5-------2/5-----5---2---|---------3-----------2---0------
G|---------------------------------|-2-----------2------------------
D|---------------------------------|--------------------------------
A|---------------------------------|--------------------------------
E|---------------------------------|--------------------------------
^ ^ ^ ^ ^ ^ ^ ^

Repeat this figure two more times, then play this:

A D E
E|-5-------5-----5-0---0-----------|-----2-----------0--------------
B|-5-------5-----5-5---5-------0---|---------3-----------2---4------
G|---------------------------------|-2-----------2---------------1--
D|---------------------------------|--------------------------------
A|---------------------------------|--------------------------------
E|---------------------------------|--------------------------------
^ ^ ^ ^ ^ ^ ^ ^


Artist name: Beatles - Beatles for sale

Last updated on December 17, 2009 with 523 views

Top100Tabs.com
The top 50 of the Guitar
!!! W A R N I N G !!!
These tabs files are the author's own work. You may only use these files for private study, scholarship, or research.