Parcourir par nom d'artiste




Encore et encore

Imprimer | Mettre dans les favoris

Encore et encore (Laurence Jalbert) 

Accords:

A/D G/D F#m/A
|--0-----3------x----|
|--2-----3------2----|
|--2-----0------4----|
|--0-----0------4----|
|---------------0----|
|---------------x----|


Arpège durant tout les couplets jouer dans cette ordre :
D A/D G/D A/D G/D A/D D

D A/D G/D
|-2---------2------0--------0-----0-------0----|
|-------3---------------2-------------3--------|
|-----2---2---2-------2---2---0-----3---3---3--|
|-0----------------0--------------0------------|
|----------------------------------------------|
|----------------------------------------------|

Arpège durant le refrain est jouer comme ceci :

P: Pouce
M: Majeur
I: Index

|------------------|
|-M-------M--------|
|-----M------------|
|---I---I---I------|
|-P----------------|
|------------------|




Je l'ai vue dans leurs yeux
L'envie folle de te faire du mal de te blesser
Je les ai vu t'arracher
ce qui restait de ton âme et de tes poupées


Bm F#m/A G A
J'ai voulu les retenir,
Em G D
Supplier, regarder droit dans les yeux
Bm F#m/A G A
Mais jamais je ne les laisserai t'emporter
Em F#m G A
en___core et encore



Je l'ai vu dans tes yeux,
L'envie folle de ne pas partir, de rester
Quand ils t'ont fermé les yeux
J'ai hurlé pendant des jours jusqu'à m'épuiser


Bm F#m/A G A
J'ai tellement voulu les retenir
Em G D
Supplier, regarder droit dans les yeux
Bm F#m/A G A
Mais jamais je ne les laisserai t'emporter
Em F#m G A
En____core et encore



Et soudain le vent se tourne vers moi
Me fixe, me regarde droit dans les yeux
M'a dit:" Je t'avais mise en garde,
je t'avais prévenue qu'elle était à nous deux



Bm F#m/A G A
J'ai tellement voulu les retenir
Em G D
Supplier, regarder droit dans les yeux
Bm F#m/A G A
Mais jamais je ne les laisserai t'emporter
Em F#m G A
En___core et encore


Nom de l'artiste: Laurence Jalbert

Dernier ajout le 19-12-2009 vu 1398 fois

Top100Tabs.com
The top 50 of the Guitar
!!! A V E R T I S S E M E N T !!!
Ces tablatures sont destinées exclusivement à un usage personnel, éducatif et non commercial.
Elles ne doivent en aucun cas être utilisées dans un but lucratif.