Parcourir par nom d'artiste




Le Picbois

Imprimer | Mettre dans les favoris

Le Picbois  ( Beau Dommage )

Intro: Riff: Em, D, C, A7, Em, D, C, A7,

Riff:

Em D C A7
À l'heure où les gens s'éveille, à l'heure des poules, l'heure des foules
Em D C A7
La rue était pleine de soleil, j'ai pris l'train d'sept heures et vingt

Riff:

Em D C A7
Descendu dans un village, sentait l'bois, sentait l'sapin
Em D C A7
J'entends l'picbois dans son arbre, j'me sens loin mais j'me sens ben

Refrain :

Em G D
Laisse-moi pas r'venir en ville
Bm C Fmaj7
Tape-moi sur ma tête de bois
Em G D
Picbois laisse-moi pas tranquille
Bm C A
Picbois j'veux pus m'en aller

Riff:

Em D C A7
Descendu dans un village, sentait l'bois, sentait l'sapin
Em D C A
Chu tombé comme un orage en plein été des Indiens

Riff:

Em D C A7
J'ai rien amené avec moé, juste mon billet de retour
Em D C A7
J'ai eu l'goût d'le déchirer, le picbois m'a joué un tour

Refrain :

Riff:

Em D C A7
Quand t'es né sur du béton, tu sais pas les noms d'oiseaux
Em D C A7
J'les connais pas par leurs noms, m'a m'asseoir sans dire un mot

Riff:

Em D C A7
À l'heure où les gens s'éveillent, chu monté jusque dans l'bois
Em D C A7
Pour me laver les oreilles en écoutant le picbois

Refrain :

Riff:
Riff final:

----------------------------------

Riff:

E|--------------------|
B|--------------------|
G|-----0-----0--------|
D|---2-----2-----0----|
A|-4-----3-----2------|
E|-----------------0--|

Riff final:

E|------------------|------------------0--|
B|-----1-----1------|------------------0--|
G|---2-----0-----0--|-----0-----0------0--|
D|-3-----2-----0----|---2-----2-----0--2--|
A|------------------|-4-----3-----2----2--|
E|------------------|------------------0--|


Nom de l'artiste: Beau Dommage

Dernier ajout le 19-12-2009 vu 1836 fois

Top100Tabs.com
The top 50 of the Guitar
!!! A V E R T I S S E M E N T !!!
Ces tablatures sont destinées exclusivement à un usage personnel, éducatif et non commercial.
Elles ne doivent en aucun cas être utilisées dans un but lucratif.