Parcourir par nom d'artiste




Tous les palmiers

Imprimer | Mettre dans les favoris

Tous les palmiers  ( Beau Dommage )    


riff intro:
A
E|-9--------------7-9-10-9-7-9--------|
B|---10-7------10--------------10-7---|
G|--------9--9----------------------9-|
D|------------------------------------|
A|------------------------------------|
E|------------------------------------|
D
E|------7-9-10-9-7-9--------|
B|---10--------------10-7---|
G|-9----------------------9-|
D|--------------------------|
A|--------------------------|
E|--------------------------|

E A
E|------7-9-10-9-7-----------------|
B|---10------------9-9-9-9-9-8-7-5-|
G|-9---------------9-9-9-9-9-8-7-6-|
D|---------------------------------|
A|---------------------------------|
E|---------------------------------|


A
Tous les palmiers tous les bananiers
D
Vont pousser pareil quand j'rai parti
Bm
J'm'en va chez-nous, c'est l'été,
E E7 A
Chez-nous y'ont sorti les chaises sur la galerie


Chus tanné d'entendre le bruit des vagues
D
Moé j'm'en va chez-nous, j'ai l'goût d'entendre
Bm
Crier:"Manon vient souper,
E E7 A
Attends pas qu'maman à choque pis qu'à descende
Db
Manon viens souper, si tu viens pas, d'ce souper-là
D
Tu pourras t'en passer
Db
Attends pas qu'maman à soit tannée
D Bm E E7
Pis qu'à descende


Riff intro:

A
Adieu, adieu pays des oranges ( Florida )
D
J'm'en va aider mon frère qui déménage
Bm
Avec l'été qui r'commence,
E E7 A
Chez-nous y ont dû sortir les bicycles du garage


A
M'a arriver en ville jeudi midi ( jeudi )
D
J'va prendre le métro jusqu'à Beaubien
Bm
En faisant semblant de rien
E E7 A
M'a arrêter au coin d'la rue pour appeler ma blonde
Db
Là ça va sonner, un coup, deux coups,
D
Trois coups, quatre coups pis là à va répondre
Db D Bm E E7
Là m'a dire "Comment ça va ma blonde; ben oui, chus r'venuu

Riff intro:

A
Tous les palmiers tous les bananiers
D
Vont poussez pareil quand j's'rai parti
Bm
Vous pouvez m'écrire ici
E E7 A
7760 St-Vanier Montréal
E E7 A
7760 St-Vanier Montréal
E E7
7760...

Riff intro:


Nom de l'artiste: Beau Dommage

Dernier ajout le 19-12-2009 vu 1716 fois

Top100Tabs.com
The top 50 of the Guitar
!!! A V E R T I S S E M E N T !!!
Ces tablatures sont destinées exclusivement à un usage personnel, éducatif et non commercial.
Elles ne doivent en aucun cas être utilisées dans un but lucratif.